Page Index Toggle Pages: 1
Topic Tools
Normal Topic Opmaak (Read 731 times)
Derek Barnstorm
Support Team
YaBB Next Team
Development Team
Beta Testers
****
Offline



Posts: 1,269
Location: United Kingdom

None
Re: Opmaak
Reply #3 - Feb 28th, 2013 at 7:12pm
Post Tools
No problem. Smiley
  
Back to top
 
IP Logged
 
RonDg
YaBB Newcomer
*
Offline



Posts: 2

YaBB 2.4
Re: Opmaak
Reply #2 - Feb 28th, 2013 at 6:36pm
Post Tools
Smiley thanks a lot iam gonna try it out ,i let you know how things turned out Smiley
Thanks again.

  
Back to top
 
IP Logged
 
Derek Barnstorm
Support Team
YaBB Next Team
Development Team
Beta Testers
****
Offline



Posts: 1,269
Location: United Kingdom

None
Re: Opmaak
Reply #1 - Feb 28th, 2013 at 3:54pm
Post Tools
Hi,

You could just use the 'pre' tag:

Code
Select All
[pre]
e-0-0-0---0-----0-----0----0-
B-------3---3-2---2-1---1--0-
G--------------------------1-
D--------------------------2-
A--------------------------2-
E-0-0-0-4-4-4-3-3-3-2-2-2--0-
[/pre] 


Output:


e-0-0-0---0-----0-----0----0-
B-------3---3-2---2-1---1--0-
G--------------------------1-
D--------------------------2-
A--------------------------2-
E-0-0-0-4-4-4-3-3-3-2-2-2--0-
  
Back to top
 
IP Logged
 
RonDg
YaBB Newcomer
*
Offline



Posts: 2

YaBB 2.4
Opmaak
Feb 28th, 2013 at 3:04pm
Post Tools
Hallo,
Ik zit met een klein probleempje en ik had gehoopt dat iemand mij hier mee kan helpen.
Ik ben admin van een gitaartabs site en als een gebruiker een tab wilt plakken in de tekstvenster dan gaat de opmaak verloren ,het probleem in dit geval is dat de tab regels niet meer juist uitlijnen ,en dus de hele tab scheef onder elkaar komt te staan zoals hieronder
e-0-0-0---0-----0-----0----0-
B-------3---3-2---2-1---1--0-
G--------------------------1-
D--------------------------2-
A--------------------------2-
E-0-0-0-4-4-4-3-3-3-2-2-2--0-
Hopelijk heeft iemand hier een oplossing voor .Is het misschien mogelijk om een andere textverwerker te gebruiken via een mod ofzo ?
Mvg
Ron
  
Back to top
 
IP Logged
 
Page Index Toggle Pages: 1
Topic Tools
 
  « Board Index ‹ Board  ^Top